ISO-10303-21;
HEADER;
FILE_DESCRIPTION (( 'STEP AP203' ),
    '1' );
FILE_NAME ('QB-CTZQWP-50.8-795-M.STEP',
    '2020-12-24T01:53:07',
    ( '' ),
    ( '' ),
    'SwSTEP 2.0',
    'SolidWorks 2020',
    '' );
FILE_SCHEMA (( 'CONFIG_CONTROL_DESIGN' ));
ENDSEC;

DATA;
#1 = DESIGN_CONTEXT ( 'detailed design', #175, 'design' ) ;
#2 = PLANE ( 'NONE',  #87 ) ;
#3 = PLANE ( 'NONE',  #94 ) ;
#4 = DIRECTION ( 'NONE',  ( -1.000000000000000000, -0.000000000000000000, -0.000000000000000000 ) ) ;
#5 = DIRECTION ( 'NONE',  ( 1.000000000000000000, 0.000000000000000000, 0.000000000000000000 ) ) ;
#6 = CARTESIAN_POINT ( 'NONE',  ( -3.000000000000002665, 3.110602869834276865E-15, -25.39999999999999858 ) ) ;
#7 = PERSON_AND_ORGANIZATION ( #59, #15 ) ;
#8 = APPLICATION_PROTOCOL_DEFINITION ( 'international standard', 'config_control_design', 1994, #121 ) ;
#9 = COORDINATED_UNIVERSAL_TIME_OFFSET ( 8, 0, .AHEAD. ) ;
#10 = CC_DESIGN_PERSON_AND_ORGANIZATION_ASSIGNMENT ( #60, #169, ( #62 ) ) ;
#11 = CLOSED_SHELL ( 'NONE', ( #27, #77, #96, #119 ) ) ;
#12 = CIRCLE ( 'NONE', #23, 25.39999999999999858 ) ;
#13 = APPROVAL ( #76, 'UNSPECIFIED' ) ;
#14 = DIRECTION ( 'NONE',  ( -1.000000000000000000, -0.000000000000000000, -0.000000000000000000 ) ) ;
#15 = ORGANIZATION ( 'UNSPECIFIED', 'UNSPECIFIED', '' ) ;
#16 = CARTESIAN_POINT ( 'NONE',  ( -3.000000000000000000, 0.000000000000000000, 0.000000000000000000 ) ) ;
#17 = EDGE_LOOP ( 'NONE', ( #151, #74 ) ) ;
#18 = ORIENTED_EDGE ( 'NONE', *, *, #46, .F. ) ;
#19 = CARTESIAN_POINT ( 'NONE',  ( 3.000000000000002665, 3.110602869834276865E-15, -25.39999999999999858 ) ) ;
#20 = EDGE_LOOP ( 'NONE', ( #136, #72, #99, #153 ) ) ;
#21 = PERSON_AND_ORGANIZATION_ROLE ( 'creator' ) ;
#22 = PERSON_AND_ORGANIZATION ( #59, #15 ) ;
#23 = AXIS2_PLACEMENT_3D ( 'NONE', #109, #53, #141 ) ;
#24 = ORIENTED_EDGE ( 'NONE', *, *, #43, .F. ) ;
#25 = PERSON_AND_ORGANIZATION ( #59, #15 ) ;
#26 = ORIENTED_EDGE ( 'NONE', *, *, #107, .T. ) ;
#27 = ADVANCED_FACE ( 'NONE', ( #28 ), #126, .T. ) ;
#28 = FACE_OUTER_BOUND ( 'NONE', #69, .T. ) ;
#29 = MECHANICAL_CONTEXT ( 'NONE', #121, 'mechanical' ) ;
#30 = FACE_OUTER_BOUND ( 'NONE', #17, .T. ) ;
#31 = PERSON_AND_ORGANIZATION ( #59, #15 ) ;
#32 = DATE_TIME_ROLE ( 'creation_date' ) ;
#33 = CARTESIAN_POINT ( 'NONE',  ( 0.000000000000000000, 0.000000000000000000, 0.000000000000000000 ) ) ;
#34 = LOCAL_TIME ( 9, 53, 7.000000000000000000, #75 ) ;
#35 = PRODUCT_DEFINITION_FORMATION_WITH_SPECIFIED_SOURCE ( 'ANY', '', #62, .NOT_KNOWN. ) ;
#36 = CC_DESIGN_PERSON_AND_ORGANIZATION_ASSIGNMENT ( #105, #91, ( #35 ) ) ;
#37 = AXIS2_PLACEMENT_3D ( 'NONE', #16, #4, #88 ) ;
#38 = DIRECTION ( 'NONE',  ( -1.000000000000000000, -0.000000000000000000, -0.000000000000000000 ) ) ;
#39 = CARTESIAN_POINT ( 'NONE',  ( 3.000000000000002665, 0.000000000000000000, 0.000000000000000000 ) ) ;
#40 = CYLINDRICAL_SURFACE ( 'NONE', #63, 25.39999999999999858 ) ;
#41 = LINE ( 'NONE', #161, #71 ) ;
#42 = CARTESIAN_POINT ( 'NONE',  ( -3.000000000000002665, 0.000000000000000000, 0.000000000000000000 ) ) ;
#43 = EDGE_CURVE ( 'NONE', #122, #149, #12, .T. ) ;
#44 = CALENDAR_DATE ( 2020, 24, 12 ) ;
#45 = APPROVAL_DATE_TIME ( #172, #13 ) ;
#46 = EDGE_CURVE ( 'NONE', #149, #122, #61, .T. ) ;
#47 = LOCAL_TIME ( 9, 53, 7.000000000000000000, #113 ) ;
#48 = CIRCLE ( 'NONE', #164, 25.39999999999999858 ) ;
#49 = VERTEX_POINT ( 'NONE', #165 ) ;
#50 = DATE_TIME_ROLE ( 'classification_date' ) ;
#51 = DIRECTION ( 'NONE',  ( 1.000000000000000000, 0.000000000000000000, 0.000000000000000000 ) ) ;
#52 = CALENDAR_DATE ( 2020, 24, 12 ) ;
#53 = DIRECTION ( 'NONE',  ( -1.000000000000000000, -0.000000000000000000, -0.000000000000000000 ) ) ;
#54 = PRODUCT_DEFINITION_SHAPE ( 'NONE', 'NONE',  #78 ) ;
#55 =( NAMED_UNIT ( * ) SI_UNIT ( $, .STERADIAN. ) SOLID_ANGLE_UNIT ( ) );
#56 = DIRECTION ( 'NONE',  ( -1.000000000000000000, -0.000000000000000000, -0.000000000000000000 ) ) ;
#57 = DATE_AND_TIME ( #52, #174 ) ;
#58 = CC_DESIGN_DATE_AND_TIME_ASSIGNMENT ( #162, #50, ( #135 ) ) ;
#59 = PERSON ( 'UNSPECIFIED', 'UNSPECIFIED', 'UNSPECIFIED', ('UNSPECIFIED'), ('UNSPECIFIED'), ('UNSPECIFIED') ) ;
#60 = PERSON_AND_ORGANIZATION ( #59, #15 ) ;
#61 = CIRCLE ( 'NONE', #145, 25.39999999999999858 ) ;
#62 = PRODUCT ( 'QB-CTZQWP-50.8-795-M', 'QB-CTZQWP-50.8-795-M', '', ( #29 ) ) ;
#63 = AXIS2_PLACEMENT_3D ( 'NONE', #67, #56, #100 ) ;
#64 = MANIFOLD_SOLID_BREP ( 'Ðý×', #11 ) ;
#65 = VERTEX_POINT ( 'NONE', #6 ) ;
#66 = CC_DESIGN_DATE_AND_TIME_ASSIGNMENT ( #103, #32, ( #78 ) ) ;
#67 = CARTESIAN_POINT ( 'NONE',  ( -3.000000000000000000, 0.000000000000000000, 0.000000000000000000 ) ) ;
#68 = PERSON_AND_ORGANIZATION_ROLE ( 'classification_officer' ) ;
#69 = EDGE_LOOP ( 'NONE', ( #128, #26, #115, #83 ) ) ;
#70 = APPLICATION_PROTOCOL_DEFINITION ( 'international standard', 'config_control_design', 1994, #175 ) ;
#71 = VECTOR ( 'NONE', #102, 1000.000000000000000 ) ;
#72 = ORIENTED_EDGE ( 'NONE', *, *, #46, .T. ) ;
#73 = CALENDAR_DATE ( 2020, 24, 12 ) ;
#74 = ORIENTED_EDGE ( 'NONE', *, *, #173, .T. ) ;
#75 = COORDINATED_UNIVERSAL_TIME_OFFSET ( 8, 0, .AHEAD. ) ;
#76 = APPROVAL_STATUS ( 'not_yet_approved' ) ;
#77 = ADVANCED_FACE ( 'NONE', ( #80 ), #40, .T. ) ;
#78 = PRODUCT_DEFINITION ( 'UNKNOWN', '', #35, #1 ) ;
#79 = CC_DESIGN_PERSON_AND_ORGANIZATION_ASSIGNMENT ( #144, #21, ( #78 ) ) ;
#80 = FACE_OUTER_BOUND ( 'NONE', #20, .T. ) ;
#81 = CARTESIAN_POINT ( 'NONE',  ( -3.000000000000001332, 25.39999999999999858, 0.000000000000000000 ) ) ;
#82 = COORDINATED_UNIVERSAL_TIME_OFFSET ( 8, 0, .AHEAD. ) ;
#83 = ORIENTED_EDGE ( 'NONE', *, *, #104, .F. ) ;
#84 = DIRECTION ( 'NONE',  ( -0.000000000000000000, 0.000000000000000000, 1.000000000000000000 ) ) ;
#85 = SHAPE_DEFINITION_REPRESENTATION ( #54, #93 ) ;
#86 = DATE_AND_TIME ( #89, #157 ) ;
#87 = AXIS2_PLACEMENT_3D ( 'NONE', #81, #51, #110 ) ;
#88 = DIRECTION ( 'NONE',  ( 0.000000000000000000, 0.000000000000000000, 1.000000000000000000 ) ) ;
#89 = CALENDAR_DATE ( 2020, 24, 12 ) ;
#90 = CC_DESIGN_PERSON_AND_ORGANIZATION_ASSIGNMENT ( #150, #68, ( #135 ) ) ;
#91 = PERSON_AND_ORGANIZATION_ROLE ( 'creator' ) ;
#92 = AXIS2_PLACEMENT_3D ( 'NONE', #42, #167, #127 ) ;
#93 = ADVANCED_BREP_SHAPE_REPRESENTATION ( 'QB-CTZQWP-50.8-795-M', ( #64, #171 ), #147 ) ;
#94 = AXIS2_PLACEMENT_3D ( 'NONE', #134, #124, #84 ) ;
#95 = CC_DESIGN_APPROVAL ( #13, ( #35 ) ) ;
#96 = ADVANCED_FACE ( 'NONE', ( #168 ), #3, .F. ) ;
#97 = LINE ( 'NONE', #155, #106 ) ;
#98 = SECURITY_CLASSIFICATION_LEVEL ( 'unclassified' ) ;
#99 = ORIENTED_EDGE ( 'NONE', *, *, #104, .T. ) ;
#100 = DIRECTION ( 'NONE',  ( 0.000000000000000000, 0.000000000000000000, 1.000000000000000000 ) ) ;
#101 = APPROVAL_STATUS ( 'not_yet_approved' ) ;
#102 = DIRECTION ( 'NONE',  ( -1.000000000000000000, -0.000000000000000000, -0.000000000000000000 ) ) ;
#103 = DATE_AND_TIME ( #44, #34 ) ;
#104 = EDGE_CURVE ( 'NONE', #122, #49, #41, .T. ) ;
#105 = PERSON_AND_ORGANIZATION ( #59, #15 ) ;
#106 = VECTOR ( 'NONE', #14, 1000.000000000000000 ) ;
#107 = EDGE_CURVE ( 'NONE', #149, #65, #97, .T. ) ;
#108 = CC_DESIGN_SECURITY_CLASSIFICATION ( #135, ( #35 ) ) ;
#109 = CARTESIAN_POINT ( 'NONE',  ( 3.000000000000002665, 0.000000000000000000, 0.000000000000000000 ) ) ;
#110 = DIRECTION ( 'NONE',  ( 0.000000000000000000, 0.000000000000000000, -1.000000000000000000 ) ) ;
#111 = APPROVAL_PERSON_ORGANIZATION ( #31, #140, #170 ) ;
#112 = DIRECTION ( 'NONE',  ( 0.000000000000000000, 0.000000000000000000, 1.000000000000000000 ) ) ;
#113 = COORDINATED_UNIVERSAL_TIME_OFFSET ( 8, 0, .AHEAD. ) ;
#114 = DIRECTION ( 'NONE',  ( -1.000000000000000000, -0.000000000000000000, -0.000000000000000000 ) ) ;
#115 = ORIENTED_EDGE ( 'NONE', *, *, #133, .F. ) ;
#116 = COORDINATED_UNIVERSAL_TIME_OFFSET ( 8, 0, .AHEAD. ) ;
#117 = CALENDAR_DATE ( 2020, 24, 12 ) ;
#118 = APPROVAL_PERSON_ORGANIZATION ( #22, #13, #130 ) ;
#119 = ADVANCED_FACE ( 'NONE', ( #30 ), #2, .F. ) ;
#120 = APPROVAL ( #156, 'UNSPECIFIED' ) ;
#121 = APPLICATION_CONTEXT ( 'configuration controlled 3d designs of mechanical parts and assemblies' ) ;
#122 = VERTEX_POINT ( 'NONE', #163 ) ;
#123 = PERSON_AND_ORGANIZATION_ROLE ( 'design_supplier' ) ;
#124 = DIRECTION ( 'NONE',  ( -1.000000000000000000, 0.000000000000000000, -0.000000000000000000 ) ) ;
#125 = APPROVAL_DATE_TIME ( #57, #120 ) ;
#126 = CYLINDRICAL_SURFACE ( 'NONE', #37, 25.39999999999999858 ) ;
#127 = DIRECTION ( 'NONE',  ( 0.000000000000000000, 0.000000000000000000, 1.000000000000000000 ) ) ;
#128 = ORIENTED_EDGE ( 'NONE', *, *, #43, .T. ) ;
#129 =( LENGTH_UNIT ( ) NAMED_UNIT ( * ) SI_UNIT ( .MILLI., .METRE. ) );
#130 = APPROVAL_ROLE ( '' ) ;
#131 = CC_DESIGN_APPROVAL ( #120, ( #135 ) ) ;
#132 = CIRCLE ( 'NONE', #92, 25.39999999999999858 ) ;
#133 = EDGE_CURVE ( 'NONE', #49, #65, #48, .T. ) ;
#134 = CARTESIAN_POINT ( 'NONE',  ( 3.000000000000001332, 25.39999999999999858, 0.000000000000000000 ) ) ;
#135 = SECURITY_CLASSIFICATION ( '', '', #98 ) ;
#136 = ORIENTED_EDGE ( 'NONE', *, *, #107, .F. ) ;
#137 = EDGE_LOOP ( 'NONE', ( #24, #18 ) ) ;
#138 = CARTESIAN_POINT ( 'NONE',  ( -3.000000000000002665, 0.000000000000000000, 0.000000000000000000 ) ) ;
#139 = CC_DESIGN_APPROVAL ( #140, ( #78 ) ) ;
#140 = APPROVAL ( #101, 'UNSPECIFIED' ) ;
#141 = DIRECTION ( 'NONE',  ( 0.000000000000000000, 0.000000000000000000, 1.000000000000000000 ) ) ;
#142 = APPROVAL_DATE_TIME ( #86, #140 ) ;
#143 = DIRECTION ( 'NONE',  ( 0.000000000000000000, 0.000000000000000000, 1.000000000000000000 ) ) ;
#144 = PERSON_AND_ORGANIZATION ( #59, #15 ) ;
#145 = AXIS2_PLACEMENT_3D ( 'NONE', #39, #38, #112 ) ;
#146 = UNCERTAINTY_MEASURE_WITH_UNIT (LENGTH_MEASURE( 1.000000000000000082E-05 ), #129, 'distance_accuracy_value', 'NONE');
#147 =( GEOMETRIC_REPRESENTATION_CONTEXT ( 3 ) GLOBAL_UNCERTAINTY_ASSIGNED_CONTEXT ( ( #146 ) ) GLOBAL_UNIT_ASSIGNED_CONTEXT ( ( #129, #152, #55 ) ) REPRESENTATION_CONTEXT ( 'NONE', 'WORKASPACE' ) );
#148 = CC_DESIGN_PERSON_AND_ORGANIZATION_ASSIGNMENT ( #25, #123, ( #35 ) ) ;
#149 = VERTEX_POINT ( 'NONE', #19 ) ;
#150 = PERSON_AND_ORGANIZATION ( #59, #15 ) ;
#151 = ORIENTED_EDGE ( 'NONE', *, *, #133, .T. ) ;
#152 =( NAMED_UNIT ( * ) PLANE_ANGLE_UNIT ( ) SI_UNIT ( $, .RADIAN. ) );
#153 = ORIENTED_EDGE ( 'NONE', *, *, #173, .F. ) ;
#154 = DIRECTION ( 'NONE',  ( 0.000000000000000000, 0.000000000000000000, 1.000000000000000000 ) ) ;
#155 = CARTESIAN_POINT ( 'NONE',  ( -3.000000000000000000, 3.110602869834276865E-15, -25.39999999999999858 ) ) ;
#156 = APPROVAL_STATUS ( 'not_yet_approved' ) ;
#157 = LOCAL_TIME ( 9, 53, 7.000000000000000000, #116 ) ;
#158 = LOCAL_TIME ( 9, 53, 7.000000000000000000, #9 ) ;
#159 = APPROVAL_PERSON_ORGANIZATION ( #7, #120, #166 ) ;
#160 = PRODUCT_RELATED_PRODUCT_CATEGORY ( 'detail', '', ( #62 ) ) ;
#161 = CARTESIAN_POINT ( 'NONE',  ( -3.000000000000000000, 0.000000000000000000, 25.39999999999999858 ) ) ;
#162 = DATE_AND_TIME ( #73, #47 ) ;
#163 = CARTESIAN_POINT ( 'NONE',  ( 3.000000000000002665, 0.000000000000000000, 25.39999999999999858 ) ) ;
#164 = AXIS2_PLACEMENT_3D ( 'NONE', #138, #114, #154 ) ;
#165 = CARTESIAN_POINT ( 'NONE',  ( -3.000000000000002665, 0.000000000000000000, 25.39999999999999858 ) ) ;
#166 = APPROVAL_ROLE ( '' ) ;
#167 = DIRECTION ( 'NONE',  ( -1.000000000000000000, -0.000000000000000000, -0.000000000000000000 ) ) ;
#168 = FACE_OUTER_BOUND ( 'NONE', #137, .T. ) ;
#169 = PERSON_AND_ORGANIZATION_ROLE ( 'design_owner' ) ;
#170 = APPROVAL_ROLE ( '' ) ;
#171 = AXIS2_PLACEMENT_3D ( 'NONE', #33, #143, #5 ) ;
#172 = DATE_AND_TIME ( #117, #158 ) ;
#173 = EDGE_CURVE ( 'NONE', #65, #49, #132, .T. ) ;
#174 = LOCAL_TIME ( 9, 53, 7.000000000000000000, #82 ) ;
#175 = APPLICATION_CONTEXT ( 'configuration controlled 3d designs of mechanical parts and assemblies' ) ;
ENDSEC;
END-ISO-10303-21;
